Fr Elise

Music: Ludwig Van Beethoven

Transcribed by Connor Roberts

 

There is a beautiful arrangement of this in the April 2008 issue of Guitar World.

 

Label A

|-0---0---0---------------------------------------0---0---0-------

|---4---4---0-3-1-------------0---------0-1---------4---4---0-3-1-

|-----------------2---------2---------1---------------------------

|-------------------------2---------2-----------2-----------------

|-----------------------3-----------------------------------------

|-----------------------------------------------------------------

 

|-------------------------0---0---0-------------------

|----------0-------1-0------4---4---0-3-1-------------

|2-------2-------------2------------------2---------2-

|------2---------2--------------------------------2---

|----3------------------------------------------3-----

|-----------------------------------------------------

 

Label B

|------------------0---0---0-------------------

|0-------0-1---------4---4---0-3-1-------------

|------1---------------------------2---------2-

|----2-----------2-------------------------2---

|----------------------------------------3-----

|----------------------------------------------

 

|-0---0---0---------------------------------------0---

|---4---4---0-3-1-------------0---------0-1---------4-

|-----------------2---------2---------1---------------

|-------------------------2---------2-----------2-----

|-----------------------3-----------------------------

|-----------------------------------------------------

 

|0---0---------------------------------0---

|--4---0-3-1-------------0-------1-0-----4-

|------------2---------2-------------2-----

|--------------------2---------2-----------

|------------------3-----------------------

|------------------------------------------

 

|0---0---------------------------------------0---0---0--------------------

|--4---0-3-1-------------0---------0-1---------4---4---0-3-1--------------

|------------2---------2---------1----------------------------2---------2-

|--------------------2---------2-----------2--------------------------2---

|------------------3------------------------------------------------3-----

|-------------------------------------------------------------------------

 

|-0---0---0-------------------------------

|---4---4---0-3-1-------------0---------0-

|-----------------2---------2---------1---

|-------------------------2---------2-----

|-----------------------3-----------------

|-----------------------------------------

 

|--------0---0---0-------------------------------|---0---0---0-------------------

|1---------4---4---0-3-1-------------0-------1-0-|-----4---4---0-3-1-------------

|------------------------2---------2-------------|2------------------2---------2-

|------2-------------------------2---------2-----|---------------------------2---

|------------------------------3-----------------|-------------------------3-----

|------------------------------------------------|-------------------------------

 

|--------------------0---0---0-------------------||

|0---------0-1---------4---4---0-3-1-------------||

|--------1---------------------------2---------2-||  [repeat label B, then go to label A]

|------2-----------2-------------------------2---||

|------------------------------------------3-----||

|------------------------------------------------||

 





Back to the Songbook Index.

This page's content is copyrighted ©1977-2008 by Kristin C. Hall. Please drop me a line (via "dink (at) media (dot) mit (dot) edu") if you wish to use it or link to it or correct it! Please send comments, suggestions, fixes and general mischievious mayhem to the web diva via the above email address. (sorry, spambots have forced me to remove my automatic mail link.) Many thanks...and enjoy! tr

Note to lawyers and any other litigious-minded folk:
I am not trying to screw anyone out of royalties, etc. I have posted these only as a helpful resources for teachers, camp counselors and people who like to "sing along with Mitch", if you will. If you do not want your work posted to these pages, please just email me (via "dink (at) media (dot) mit (dot) edu") and I shall remove it.